ISO-10303-21;
HEADER;
FILE_DESCRIPTION (( 'STEP AP203' ),
    '1' );
FILE_NAME ('Q-QZWP-R4-25.4-795-M.STEP',
    '2020-12-23T01:28:17',
    ( '' ),
    ( '' ),
    'SwSTEP 2.0',
    'SolidWorks 2020',
    '' );
FILE_SCHEMA (( 'CONFIG_CONTROL_DESIGN' ));
ENDSEC;

DATA;
#1 = CARTESIAN_POINT ( 'NONE',  ( -3.000000000000000000, 0.000000000000000000, 15.00000000000000000 ) ) ;
#2 = DIRECTION ( 'NONE',  ( 0.000000000000000000, 0.000000000000000000, 1.000000000000000000 ) ) ;
#3 = CIRCLE ( 'NONE', #11, 15.00000000000000000 ) ;
#4 = APPROVAL_ROLE ( '' ) ;
#5 = PERSON_AND_ORGANIZATION_ROLE ( 'creator' ) ;
#6 = PERSON_AND_ORGANIZATION ( #135, #65 ) ;
#7 = APPROVAL_DATE_TIME ( #37, #104 ) ;
#8 = SECURITY_CLASSIFICATION ( '', '', #53 ) ;
#9 = APPLICATION_CONTEXT ( 'configuration controlled 3d designs of mechanical parts and assemblies' ) ;
#10 = CC_DESIGN_APPROVAL ( #103, ( #137 ) ) ;
#11 = AXIS2_PLACEMENT_3D ( 'NONE', #66, #159, #40 ) ;
#12 = AXIS2_PLACEMENT_3D ( 'NONE', #81, #83, #173 ) ;
#13 = EDGE_LOOP ( 'NONE', ( #122, #56, #97, #55 ) ) ;
#14 = DIRECTION ( 'NONE',  ( -1.000000000000000000, -0.000000000000000000, -0.000000000000000000 ) ) ;
#15 = PLANE ( 'NONE',  #76 ) ;
#16 =( LENGTH_UNIT ( ) NAMED_UNIT ( * ) SI_UNIT ( .MILLI., .METRE. ) );
#17 = EDGE_CURVE ( 'NONE', #68, #44, #136, .T. ) ;
#18 = PERSON_AND_ORGANIZATION_ROLE ( 'classification_officer' ) ;
#19 = CIRCLE ( 'NONE', #138, 15.00000000000000000 ) ;
#20 = CALENDAR_DATE ( 2020, 23, 12 ) ;
#21 = CLOSED_SHELL ( 'NONE', ( #126, #131, #71, #92 ) ) ;
#22 = PERSON_AND_ORGANIZATION ( #135, #65 ) ;
#23 = AXIS2_PLACEMENT_3D ( 'NONE', #148, #32, #128 ) ;
#24 = PERSON_AND_ORGANIZATION ( #135, #65 ) ;
#25 = EDGE_LOOP ( 'NONE', ( #174, #30 ) ) ;
#26 = CC_DESIGN_APPROVAL ( #104, ( #87 ) ) ;
#27 = CYLINDRICAL_SURFACE ( 'NONE', #121, 15.00000000000000000 ) ;
#28 = ORIENTED_EDGE ( 'NONE', *, *, #162, .T. ) ;
#29 = CC_DESIGN_PERSON_AND_ORGANIZATION_ASSIGNMENT ( #24, #18, ( #8 ) ) ;
#30 = ORIENTED_EDGE ( 'NONE', *, *, #54, .T. ) ;
#31 = EDGE_CURVE ( 'NONE', #161, #106, #60, .T. ) ;
#32 = DIRECTION ( 'NONE',  ( 0.000000000000000000, 0.000000000000000000, 1.000000000000000000 ) ) ;
#33 = APPLICATION_PROTOCOL_DEFINITION ( 'international standard', 'config_control_design', 1994, #9 ) ;
#34 = DIRECTION ( 'NONE',  ( 1.000000000000000000, 0.000000000000000000, 0.000000000000000000 ) ) ;
#35 = CARTESIAN_POINT ( 'NONE',  ( -1.614212418857619014, 0.000000000000000000, 0.000000000000000000 ) ) ;
#36 = APPROVAL_PERSON_ORGANIZATION ( #91, #104, #105 ) ;
#37 = DATE_AND_TIME ( #158, #82 ) ;
#38 = APPROVAL_DATE_TIME ( #77, #141 ) ;
#39 = APPROVAL_STATUS ( 'not_yet_approved' ) ;
#40 = DIRECTION ( 'NONE',  ( 0.000000000000000000, 0.000000000000000000, 1.000000000000000000 ) ) ;
#41 = DIRECTION ( 'NONE',  ( -1.000000000000000000, -0.000000000000000000, -0.000000000000000000 ) ) ;
#42 = ORIENTED_EDGE ( 'NONE', *, *, #113, .T. ) ;
#43 = ORIENTED_EDGE ( 'NONE', *, *, #113, .F. ) ;
#44 = VERTEX_POINT ( 'NONE', #69 ) ;
#45 = CARTESIAN_POINT ( 'NONE',  ( -3.000000000000000000, 1.836970198721029589E-15, -15.00000000000000000 ) ) ;
#46 = AXIS2_PLACEMENT_3D ( 'NONE', #35, #70, #2 ) ;
#47 = PERSON_AND_ORGANIZATION ( #135, #65 ) ;
#48 = DIRECTION ( 'NONE',  ( -1.000000000000000000, -0.000000000000000000, -0.000000000000000000 ) ) ;
#49 = EDGE_CURVE ( 'NONE', #44, #161, #125, .T. ) ;
#50 = DIRECTION ( 'NONE',  ( 0.000000000000000000, 0.000000000000000000, -1.000000000000000000 ) ) ;
#51 = DATE_AND_TIME ( #160, #172 ) ;
#52 = DATE_TIME_ROLE ( 'creation_date' ) ;
#53 = SECURITY_CLASSIFICATION_LEVEL ( 'unclassified' ) ;
#54 = EDGE_CURVE ( 'NONE', #106, #161, #3, .T. ) ;
#55 = ORIENTED_EDGE ( 'NONE', *, *, #54, .F. ) ;
#56 = ORIENTED_EDGE ( 'NONE', *, *, #17, .T. ) ;
#57 = EDGE_LOOP ( 'NONE', ( #42, #28, #96, #112 ) ) ;
#58 = DIRECTION ( 'NONE',  ( -0.000000000000000000, 0.000000000000000000, 1.000000000000000000 ) ) ;
#59 = CARTESIAN_POINT ( 'NONE',  ( -1.614212418857619014, 1.836970198721029589E-15, -15.00000000000000000 ) ) ;
#60 = CIRCLE ( 'NONE', #12, 15.00000000000000000 ) ;
#61 = CARTESIAN_POINT ( 'NONE',  ( 3.000000000000000888, 12.69999999999999929, 0.000000000000000000 ) ) ;
#62 = COORDINATED_UNIVERSAL_TIME_OFFSET ( 8, 0, .AHEAD. ) ;
#63 = CC_DESIGN_PERSON_AND_ORGANIZATION_ASSIGNMENT ( #101, #151, ( #137 ) ) ;
#64 = CALENDAR_DATE ( 2020, 23, 12 ) ;
#65 = ORGANIZATION ( 'UNSPECIFIED', 'UNSPECIFIED', '' ) ;
#66 = CARTESIAN_POINT ( 'NONE',  ( -3.000000000000000000, 0.000000000000000000, 0.000000000000000000 ) ) ;
#67 = LOCAL_TIME ( 9, 28, 17.00000000000000000, #153 ) ;
#68 = VERTEX_POINT ( 'NONE', #144 ) ;
#69 = CARTESIAN_POINT ( 'NONE',  ( 3.000000000000000000, 0.000000000000000000, 15.00000000000000000 ) ) ;
#70 = DIRECTION ( 'NONE',  ( -1.000000000000000000, -0.000000000000000000, -0.000000000000000000 ) ) ;
#71 = ADVANCED_FACE ( 'NONE', ( #134 ), #27, .T. ) ;
#72 =( GEOMETRIC_REPRESENTATION_CONTEXT ( 3 ) GLOBAL_UNCERTAINTY_ASSIGNED_CONTEXT ( ( #129 ) ) GLOBAL_UNIT_ASSIGNED_CONTEXT ( ( #16, #114, #74 ) ) REPRESENTATION_CONTEXT ( 'NONE', 'WORKASPACE' ) );
#73 = PRODUCT_RELATED_PRODUCT_CATEGORY ( 'detail', '', ( #167 ) ) ;
#74 =( NAMED_UNIT ( * ) SI_UNIT ( $, .STERADIAN. ) SOLID_ANGLE_UNIT ( ) );
#75 = CARTESIAN_POINT ( 'NONE',  ( -3.000000000000000888, 12.69999999999999929, 0.000000000000000000 ) ) ;
#76 = AXIS2_PLACEMENT_3D ( 'NONE', #75, #34, #50 ) ;
#77 = DATE_AND_TIME ( #20, #132 ) ;
#78 = APPROVAL_STATUS ( 'not_yet_approved' ) ;
#79 = CARTESIAN_POINT ( 'NONE',  ( 3.000000000000000000, 0.000000000000000000, 0.000000000000000000 ) ) ;
#80 = CARTESIAN_POINT ( 'NONE',  ( -1.614212418857619014, 0.000000000000000000, 0.000000000000000000 ) ) ;
#81 = CARTESIAN_POINT ( 'NONE',  ( -3.000000000000000000, 0.000000000000000000, 0.000000000000000000 ) ) ;
#82 = LOCAL_TIME ( 9, 28, 17.00000000000000000, #154 ) ;
#83 = DIRECTION ( 'NONE',  ( -1.000000000000000000, -0.000000000000000000, -0.000000000000000000 ) ) ;
#84 = FACE_OUTER_BOUND ( 'NONE', #25, .T. ) ;
#85 = CYLINDRICAL_SURFACE ( 'NONE', #46, 15.00000000000000000 ) ;
#86 = PERSON_AND_ORGANIZATION ( #135, #65 ) ;
#87 = PRODUCT_DEFINITION_FORMATION_WITH_SPECIFIED_SOURCE ( 'ANY', '', #167, .NOT_KNOWN. ) ;
#88 = AXIS2_PLACEMENT_3D ( 'NONE', #79, #145, #93 ) ;
#89 = SHAPE_DEFINITION_REPRESENTATION ( #118, #108 ) ;
#90 = DATE_TIME_ROLE ( 'classification_date' ) ;
#91 = PERSON_AND_ORGANIZATION ( #135, #65 ) ;
#92 = ADVANCED_FACE ( 'NONE', ( #84 ), #15, .F. ) ;
#93 = DIRECTION ( 'NONE',  ( 0.000000000000000000, 0.000000000000000000, 1.000000000000000000 ) ) ;
#94 = CC_DESIGN_SECURITY_CLASSIFICATION ( #8, ( #87 ) ) ;
#95 = MANIFOLD_SOLID_BREP ( 'Ðý×', #21 ) ;
#96 = ORIENTED_EDGE ( 'NONE', *, *, #31, .F. ) ;
#97 = ORIENTED_EDGE ( 'NONE', *, *, #49, .T. ) ;
#98 = DIRECTION ( 'NONE',  ( -1.000000000000000000, 0.000000000000000000, -0.000000000000000000 ) ) ;
#99 = CC_DESIGN_PERSON_AND_ORGANIZATION_ASSIGNMENT ( #22, #5, ( #87 ) ) ;
#100 = APPROVAL_PERSON_ORGANIZATION ( #86, #103, #4 ) ;
#101 = PERSON_AND_ORGANIZATION ( #135, #65 ) ;
#102 = DIRECTION ( 'NONE',  ( -1.000000000000000000, -0.000000000000000000, -0.000000000000000000 ) ) ;
#103 = APPROVAL ( #142, 'UNSPECIFIED' ) ;
#104 = APPROVAL ( #78, 'UNSPECIFIED' ) ;
#105 = APPROVAL_ROLE ( '' ) ;
#106 = VERTEX_POINT ( 'NONE', #45 ) ;
#107 = AXIS2_PLACEMENT_3D ( 'NONE', #61, #98, #58 ) ;
#108 = ADVANCED_BREP_SHAPE_REPRESENTATION ( 'Q-QZWP-R4-25.4-795-M', ( #95, #23 ), #72 ) ;
#109 = EDGE_LOOP ( 'NONE', ( #43, #123 ) ) ;
#110 = CC_DESIGN_APPROVAL ( #141, ( #8 ) ) ;
#111 = COORDINATED_UNIVERSAL_TIME_OFFSET ( 8, 0, .AHEAD. ) ;
#112 = ORIENTED_EDGE ( 'NONE', *, *, #49, .F. ) ;
#113 = EDGE_CURVE ( 'NONE', #44, #68, #19, .T. ) ;
#114 =( NAMED_UNIT ( * ) PLANE_ANGLE_UNIT ( ) SI_UNIT ( $, .RADIAN. ) );
#115 = MECHANICAL_CONTEXT ( 'NONE', #164, 'mechanical' ) ;
#116 = DATE_AND_TIME ( #64, #124 ) ;
#117 = CARTESIAN_POINT ( 'NONE',  ( 3.000000000000000000, 0.000000000000000000, 0.000000000000000000 ) ) ;
#118 = PRODUCT_DEFINITION_SHAPE ( 'NONE', 'NONE',  #137 ) ;
#119 = APPROVAL_ROLE ( '' ) ;
#120 = PERSON_AND_ORGANIZATION ( #135, #65 ) ;
#121 = AXIS2_PLACEMENT_3D ( 'NONE', #80, #48, #168 ) ;
#122 = ORIENTED_EDGE ( 'NONE', *, *, #162, .F. ) ;
#123 = ORIENTED_EDGE ( 'NONE', *, *, #17, .F. ) ;
#124 = LOCAL_TIME ( 9, 28, 17.00000000000000000, #62 ) ;
#125 = LINE ( 'NONE', #175, #155 ) ;
#126 = ADVANCED_FACE ( 'NONE', ( #152 ), #85, .T. ) ;
#127 = APPLICATION_PROTOCOL_DEFINITION ( 'international standard', 'config_control_design', 1994, #164 ) ;
#128 = DIRECTION ( 'NONE',  ( 1.000000000000000000, 0.000000000000000000, 0.000000000000000000 ) ) ;
#129 = UNCERTAINTY_MEASURE_WITH_UNIT (LENGTH_MEASURE( 1.000000000000000082E-05 ), #16, 'distance_accuracy_value', 'NONE');
#130 = CALENDAR_DATE ( 2020, 23, 12 ) ;
#131 = ADVANCED_FACE ( 'NONE', ( #139 ), #147, .F. ) ;
#132 = LOCAL_TIME ( 9, 28, 17.00000000000000000, #143 ) ;
#133 = CC_DESIGN_PERSON_AND_ORGANIZATION_ASSIGNMENT ( #6, #170, ( #87 ) ) ;
#134 = FACE_OUTER_BOUND ( 'NONE', #13, .T. ) ;
#135 = PERSON ( 'UNSPECIFIED', 'UNSPECIFIED', 'UNSPECIFIED', ('UNSPECIFIED'), ('UNSPECIFIED'), ('UNSPECIFIED') ) ;
#136 = CIRCLE ( 'NONE', #88, 15.00000000000000000 ) ;
#137 = PRODUCT_DEFINITION ( 'UNKNOWN', '', #87, #150 ) ;
#138 = AXIS2_PLACEMENT_3D ( 'NONE', #117, #102, #140 ) ;
#139 = FACE_OUTER_BOUND ( 'NONE', #109, .T. ) ;
#140 = DIRECTION ( 'NONE',  ( 0.000000000000000000, 0.000000000000000000, 1.000000000000000000 ) ) ;
#141 = APPROVAL ( #39, 'UNSPECIFIED' ) ;
#142 = APPROVAL_STATUS ( 'not_yet_approved' ) ;
#143 = COORDINATED_UNIVERSAL_TIME_OFFSET ( 8, 0, .AHEAD. ) ;
#144 = CARTESIAN_POINT ( 'NONE',  ( 3.000000000000000000, 1.836970198721029589E-15, -15.00000000000000000 ) ) ;
#145 = DIRECTION ( 'NONE',  ( -1.000000000000000000, -0.000000000000000000, -0.000000000000000000 ) ) ;
#146 = CC_DESIGN_PERSON_AND_ORGANIZATION_ASSIGNMENT ( #47, #149, ( #167 ) ) ;
#147 = PLANE ( 'NONE',  #107 ) ;
#148 = CARTESIAN_POINT ( 'NONE',  ( 0.000000000000000000, 0.000000000000000000, 0.000000000000000000 ) ) ;
#149 = PERSON_AND_ORGANIZATION_ROLE ( 'design_owner' ) ;
#150 = DESIGN_CONTEXT ( 'detailed design', #9, 'design' ) ;
#151 = PERSON_AND_ORGANIZATION_ROLE ( 'creator' ) ;
#152 = FACE_OUTER_BOUND ( 'NONE', #57, .T. ) ;
#153 = COORDINATED_UNIVERSAL_TIME_OFFSET ( 8, 0, .AHEAD. ) ;
#154 = COORDINATED_UNIVERSAL_TIME_OFFSET ( 8, 0, .AHEAD. ) ;
#155 = VECTOR ( 'NONE', #41, 1000.000000000000000 ) ;
#156 = VECTOR ( 'NONE', #14, 1000.000000000000000 ) ;
#157 = DATE_AND_TIME ( #130, #67 ) ;
#158 = CALENDAR_DATE ( 2020, 23, 12 ) ;
#159 = DIRECTION ( 'NONE',  ( -1.000000000000000000, -0.000000000000000000, -0.000000000000000000 ) ) ;
#160 = CALENDAR_DATE ( 2020, 23, 12 ) ;
#161 = VERTEX_POINT ( 'NONE', #1 ) ;
#162 = EDGE_CURVE ( 'NONE', #68, #106, #165, .T. ) ;
#163 = CC_DESIGN_DATE_AND_TIME_ASSIGNMENT ( #51, #90, ( #8 ) ) ;
#164 = APPLICATION_CONTEXT ( 'configuration controlled 3d designs of mechanical parts and assemblies' ) ;
#165 = LINE ( 'NONE', #59, #156 ) ;
#166 = APPROVAL_DATE_TIME ( #116, #103 ) ;
#167 = PRODUCT ( 'Q-QZWP-R4-25.4-795-M', 'Q-QZWP-R4-25.4-795-M', '', ( #115 ) ) ;
#168 = DIRECTION ( 'NONE',  ( 0.000000000000000000, 0.000000000000000000, 1.000000000000000000 ) ) ;
#169 = APPROVAL_PERSON_ORGANIZATION ( #120, #141, #119 ) ;
#170 = PERSON_AND_ORGANIZATION_ROLE ( 'design_supplier' ) ;
#171 = CC_DESIGN_DATE_AND_TIME_ASSIGNMENT ( #157, #52, ( #137 ) ) ;
#172 = LOCAL_TIME ( 9, 28, 17.00000000000000000, #111 ) ;
#173 = DIRECTION ( 'NONE',  ( 0.000000000000000000, 0.000000000000000000, 1.000000000000000000 ) ) ;
#174 = ORIENTED_EDGE ( 'NONE', *, *, #31, .T. ) ;
#175 = CARTESIAN_POINT ( 'NONE',  ( -1.614212418857619014, 0.000000000000000000, 15.00000000000000000 ) ) ;
ENDSEC;
END-ISO-10303-21;
